ISO-10303-21;
HEADER;
FILE_DESCRIPTION (( 'STEP AP203' ),
    '1' );
FILE_NAME ('End Cap SDR17_001 115 0140 0180.step',
    '2019-12-16T11:43:30',
    ( '' ),
    ( '' ),
    'SwSTEP 2.0',
    'SolidWorks 2019',
    '' );
FILE_SCHEMA (( 'CONFIG_CONTROL_DESIGN' ));
ENDSEC;

DATA;
#1 = CC_DESIGN_PERSON_AND_ORGANIZATION_ASSIGNMENT ( #277, #53, ( #284 ) ) ;
#2 = DIRECTION ( 'NONE',  ( 0.0000000000000000000, 0.0000000000000000000, -1.000000000000000000 ) ) ;
#3 = CARTESIAN_POINT ( 'NONE',  ( 0.0000000000000000000, -235.8286927311983732, 0.0000000000000000000 ) ) ;
#4 = DIRECTION ( 'NONE',  ( 0.0000000000000000000, 0.0000000000000000000, -1.000000000000000000 ) ) ;
#5 = DIRECTION ( 'NONE',  ( -0.0000000000000000000, -1.000000000000000000, -0.0000000000000000000 ) ) ;
#6 =( GEOMETRIC_REPRESENTATION_CONTEXT ( 3 ) GLOBAL_UNCERTAINTY_ASSIGNED_CONTEXT ( ( #36 ) ) GLOBAL_UNIT_ASSIGNED_CONTEXT ( ( #145, #117, #95 ) ) REPRESENTATION_CONTEXT ( 'NONE', 'WORKASPACE' ) );
#7 = LINE ( 'NONE', #94, #38 ) ;
#8 = DIRECTION ( 'NONE',  ( 1.000000000000000000, 0.0000000000000000000, 0.0000000000000000000 ) ) ;
#9 = AXIS2_PLACEMENT_3D ( 'NONE', #118, #227, #8 ) ;
#10 = APPROVAL_DATE_TIME ( #228, #230 ) ;
#11 = APPROVAL_DATE_TIME ( #229, #304 ) ;
#12 = PERSON ( 'BELÝRTÝLMEMÝÞ', 'BELÝRTÝLMEMÝÞ', 'BELÝRTÝLMEMÝÞ', ('BELÝRTÝLMEMÝÞ'), ('BELÝRTÝLMEMÝÞ'), ('BELÝRTÝLMEMÝÞ') ) ;
#13 = APPROVAL_STATUS ( 'not_yet_approved' ) ;
#14 = APPROVAL_PERSON_ORGANIZATION ( #231, #201, #100 ) ;
#15 = LINE ( 'NONE', #232, #70 ) ;
#16 = ORIENTED_EDGE ( 'NONE', *, *, #213, .T. ) ;
#17 = ORIENTED_EDGE ( 'NONE', *, *, #251, .T. ) ;
#18 = VERTEX_POINT ( 'NONE', #40 ) ;
#19 = AXIS2_PLACEMENT_3D ( 'NONE', #293, #69, #173 ) ;
#20 = VERTEX_POINT ( 'NONE', #131 ) ;
#21 = DIRECTION ( 'NONE',  ( -0.0000000000000000000, -1.000000000000000000, -0.0000000000000000000 ) ) ;
#22 = CIRCLE ( 'NONE', #19, 349.3003425277385645 ) ;
#23 = DIRECTION ( 'NONE',  ( 0.0000000000000000000, 0.0000000000000000000, -1.000000000000000000 ) ) ;
#24 = FACE_OUTER_BOUND ( 'NONE', #57, .T. ) ;
#25 = CYLINDRICAL_SURFACE ( 'NONE', #52, 79.29999999999998295 ) ;
#26 = DIRECTION ( 'NONE',  ( -0.0000000000000000000, -1.000000000000000000, -0.0000000000000000000 ) ) ;
#27 = CARTESIAN_POINT ( 'NONE',  ( 0.0000000000000000000, 0.0000000000000000000, 0.0000000000000000000 ) ) ;
#28 = LOCAL_TIME ( 14, 43, 30.00000000000000000, #294 ) ;
#29 = ADVANCED_FACE ( 'NONE', ( #239 ), #214, .T. ) ;
#30 = COORDINATED_UNIVERSAL_TIME_OFFSET ( 3, 0, .AHEAD. ) ;
#31 = COORDINATED_UNIVERSAL_TIME_OFFSET ( 3, 0, .AHEAD. ) ;
#32 = DATE_AND_TIME ( #255, #146 ) ;
#33 = VERTEX_POINT ( 'NONE', #108 ) ;
#34 = EDGE_LOOP ( 'NONE', ( #305, #300, #35 ) ) ;
#35 = ORIENTED_EDGE ( 'NONE', *, *, #132, .F. ) ;
#36 = UNCERTAINTY_MEASURE_WITH_UNIT (LENGTH_MEASURE( 1.000000000000000082E-05 ), #145, 'distance_accuracy_value', 'NONE');
#37 = ORIENTED_EDGE ( 'NONE', *, *, #132, .T. ) ;
#38 = VECTOR ( 'NONE', #200, 1000.000000000000000 ) ;
#39 = AXIS2_PLACEMENT_3D ( 'NONE', #292, #67, #171 ) ;
#40 = CARTESIAN_POINT ( 'NONE',  ( 1.102182119232617911E-14, 113.4601254933085812, 90.00000000000000000 ) ) ;
#41 = DIRECTION ( 'NONE',  ( 0.0000000000000000000, 0.0000000000000000000, -1.000000000000000000 ) ) ;
#42 = DIRECTION ( 'NONE',  ( -1.224646799147353207E-16, 0.0000000000000000000, -1.000000000000000000 ) ) ;
#43 = AXIS2_PLACEMENT_3D ( 'NONE', #27, #115, #225 ) ;
#44 = CARTESIAN_POINT ( 'NONE',  ( 0.0000000000000000000, 104.9999999999999858, 0.0000000000000000000 ) ) ;
#45 = DIRECTION ( 'NONE',  ( -0.0000000000000000000, -1.000000000000000000, -0.0000000000000000000 ) ) ;
#46 = FACE_OUTER_BOUND ( 'NONE', #259, .T. ) ;
#47 = CARTESIAN_POINT ( 'NONE',  ( -7.388266487671513240E-15, 113.4601254933085812, 0.0000000000000000000 ) ) ;
#48 = DIRECTION ( 'NONE',  ( 0.0000000000000000000, 0.0000000000000000000, -1.000000000000000000 ) ) ;
#49 = CC_DESIGN_APPROVAL ( #201, ( #284 ) ) ;
#50 = PERSON_AND_ORGANIZATION ( #12, #262 ) ;
#51 = PERSON_AND_ORGANIZATION ( #12, #262 ) ;
#52 = AXIS2_PLACEMENT_3D ( 'NONE', #112, #222, #4 ) ;
#53 = PERSON_AND_ORGANIZATION_ROLE ( 'classification_officer' ) ;
#54 = ORIENTED_EDGE ( 'NONE', *, *, #188, .F. ) ;
#55 = ORIENTED_EDGE ( 'NONE', *, *, #226, .F. ) ;
#56 = ORIENTED_EDGE ( 'NONE', *, *, #244, .F. ) ;
#57 = EDGE_LOOP ( 'NONE', ( #54, #215, #217 ) ) ;
#58 = AXIS2_PLACEMENT_3D ( 'NONE', #268, #45, #140 ) ;
#59 = APPROVAL_PERSON_ORGANIZATION ( #51, #304, #254 ) ;
#60 = CARTESIAN_POINT ( 'NONE',  ( 0.0000000000000000000, 0.0000000000000000000, -90.00000000000000000 ) ) ;
#61 = DIRECTION ( 'NONE',  ( 0.0000000000000000000, 0.0000000000000000000, 1.000000000000000000 ) ) ;
#62 = CARTESIAN_POINT ( 'NONE',  ( 0.0000000000000000000, -235.8286927311983732, -2.837384944419703903 ) ) ;
#63 = CIRCLE ( 'NONE', #58, 79.29999999999998295 ) ;
#64 = DIRECTION ( 'NONE',  ( 0.0000000000000000000, 0.0000000000000000000, -1.000000000000000000 ) ) ;
#65 = AXIS2_PLACEMENT_3D ( 'NONE', #133, #290, #64 ) ;
#66 = LINE ( 'NONE', #170, #97 ) ;
#67 = DIRECTION ( 'NONE',  ( -0.0000000000000000000, -1.000000000000000000, -0.0000000000000000000 ) ) ;
#68 = CARTESIAN_POINT ( 'NONE',  ( 0.0000000000000000000, 113.4601254933085812, -90.00000000000000000 ) ) ;
#69 = DIRECTION ( 'NONE',  ( 1.000000000000000000, 0.0000000000000000000, -1.224646799147353207E-16 ) ) ;
#70 = VECTOR ( 'NONE', #210, 1000.000000000000000 ) ;
#71 = PERSON_AND_ORGANIZATION ( #12, #262 ) ;
#72 = MANIFOLD_SOLID_BREP ( 'Döndür1', #216 ) ;
#73 = CALENDAR_DATE ( 2019, 16, 12 ) ;
#74 = PERSON_AND_ORGANIZATION_ROLE ( 'design_supplier' ) ;
#75 = VECTOR ( 'NONE', #124, 1000.000000000000000 ) ;
#76 = AXIS2_PLACEMENT_3D ( 'NONE', #172, #272, #48 ) ;
#77 = DATE_AND_TIME ( #299, #191 ) ;
#78 = ADVANCED_FACE ( 'NONE', ( #190 ), #203, .T. ) ;
#79 = ORIENTED_EDGE ( 'NONE', *, *, #165, .T. ) ;
#80 = EDGE_LOOP ( 'NONE', ( #102, #155 ) ) ;
#81 = TOROIDAL_SURFACE ( 'NONE', #76, 2.837384944419703903, 349.3003425277385645 ) ;
#82 = AXIS2_PLACEMENT_3D ( 'NONE', #223, #5, #93 ) ;
#83 = ORIENTED_EDGE ( 'NONE', *, *, #174, .F. ) ;
#84 = ORIENTED_EDGE ( 'NONE', *, *, #288, .T. ) ;
#85 = DIRECTION ( 'NONE',  ( 0.0000000000000000000, 0.0000000000000000000, -1.000000000000000000 ) ) ;
#86 = AXIS2_PLACEMENT_3D ( 'NONE', #246, #26, #113 ) ;
#87 = DIRECTION ( 'NONE',  ( 0.0000000000000000000, 0.0000000000000000000, -1.000000000000000000 ) ) ;
#88 = CC_DESIGN_PERSON_AND_ORGANIZATION_ASSIGNMENT ( #71, #178, ( #114 ) ) ;
#89 = CARTESIAN_POINT ( 'NONE',  ( 0.0000000000000000000, 104.9999999999999858, 0.0000000000000000000 ) ) ;
#90 = DIRECTION ( 'NONE',  ( -0.0000000000000000000, -1.000000000000000000, -0.0000000000000000000 ) ) ;
#91 = FACE_OUTER_BOUND ( 'NONE', #235, .T. ) ;
#92 = CIRCLE ( 'NONE', #82, 90.00000000000000000 ) ;
#93 = DIRECTION ( 'NONE',  ( 0.0000000000000000000, 0.0000000000000000000, -1.000000000000000000 ) ) ;
#94 = CARTESIAN_POINT ( 'NONE',  ( 0.0000000000000000000, 0.0000000000000000000, -79.29999999999998295 ) ) ;
#95 =( NAMED_UNIT ( * ) SI_UNIT ( $, .STERADIAN. ) SOLID_ANGLE_UNIT ( ) );
#96 = MECHANICAL_CONTEXT ( 'NONE', #289, 'mechanical' ) ;
#97 = VECTOR ( 'NONE', #269, 1000.000000000000000 ) ;
#98 = PERSON_AND_ORGANIZATION ( #12, #262 ) ;
#99 = PERSON_AND_ORGANIZATION ( #12, #262 ) ;
#100 = APPROVAL_ROLE ( '' ) ;
#101 = CC_DESIGN_APPROVAL ( #304, ( #209 ) ) ;
#102 = ORIENTED_EDGE ( 'NONE', *, *, #165, .F. ) ;
#103 = ORIENTED_EDGE ( 'NONE', *, *, #244, .T. ) ;
#104 = VERTEX_POINT ( 'NONE', #60 ) ;
#105 = AXIS2_PLACEMENT_3D ( 'NONE', #3, #90, #195 ) ;
#106 = TOROIDAL_SURFACE ( 'NONE', #105, 2.837384944419703903, 349.3003425277385645 ) ;
#107 = EDGE_LOOP ( 'NONE', ( #37, #16, #55, #56 ) ) ;
#108 = CARTESIAN_POINT ( 'NONE',  ( 0.0000000000000000000, 104.9999999999999858, -79.29999999999996874 ) ) ;
#109 = DIRECTION ( 'NONE',  ( 0.0000000000000000000, 0.0000000000000000000, -1.000000000000000000 ) ) ;
#110 = AXIS2_PLACEMENT_3D ( 'NONE', #44, #139, #243 ) ;
#111 = CARTESIAN_POINT ( 'NONE',  ( 0.0000000000000000000, 113.4601254933085812, 0.0000000000000000000 ) ) ;
#112 = CARTESIAN_POINT ( 'NONE',  ( 0.0000000000000000000, 0.0000000000000000000, 0.0000000000000000000 ) ) ;
#113 = DIRECTION ( 'NONE',  ( 0.0000000000000000000, 0.0000000000000000000, -1.000000000000000000 ) ) ;
#114 = PRODUCT ( 'End Cap SDR17_001 115 0140 0180', 'End Cap SDR17_001 115 0140 0180', '', ( #96 ) ) ;
#115 = DIRECTION ( 'NONE',  ( -0.0000000000000000000, -1.000000000000000000, -0.0000000000000000000 ) ) ;
#116 = APPROVAL_PERSON_ORGANIZATION ( #50, #230, #253 ) ;
#117 =( NAMED_UNIT ( * ) PLANE_ANGLE_UNIT ( ) SI_UNIT ( $, .RADIAN. ) );
#118 = CARTESIAN_POINT ( 'NONE',  ( 0.0000000000000000000, 0.0000000000000000000, 0.0000000000000000000 ) ) ;
#119 = CALENDAR_DATE ( 2019, 16, 12 ) ;
#120 = CIRCLE ( 'NONE', #110, 79.29999999999996874 ) ;
#122 = EDGE_CURVE ( 'NONE', #20, #104, #197, .T. ) ;
#121 = CALENDAR_DATE ( 2019, 16, 12 ) ;
#123 = DATE_TIME_ROLE ( 'classification_date' ) ;
#124 = DIRECTION ( 'NONE',  ( -0.0000000000000000000, -1.000000000000000000, -0.0000000000000000000 ) ) ;
#125 = ORIENTED_EDGE ( 'NONE', *, *, #192, .F. ) ;
#126 = EDGE_LOOP ( 'NONE', ( #153, #303, #84, #79 ) ) ;
#127 = ORIENTED_EDGE ( 'NONE', *, *, #226, .T. ) ;
#128 = ORIENTED_EDGE ( 'NONE', *, *, #122, .T. ) ;
#129 = AXIS2_PLACEMENT_3D ( 'NONE', #62, #166, #266 ) ;
#130 = CIRCLE ( 'NONE', #129, 349.3003425277385645 ) ;
#131 = CARTESIAN_POINT ( 'NONE',  ( 1.102182119232617911E-14, 0.0000000000000000000, 90.00000000000000000 ) ) ;
#132 = EDGE_CURVE ( 'NONE', #238, #18, #186, .T. ) ;
#133 = CARTESIAN_POINT ( 'NONE',  ( 79.29999999999998295, 0.0000000000000000000, 0.0000000000000000000 ) ) ;
#134 = PRODUCT_RELATED_PRODUCT_CATEGORY ( 'detail', '', ( #114 ) ) ;
#135 = CARTESIAN_POINT ( 'NONE',  ( 0.0000000000000000000, 0.0000000000000000000, 0.0000000000000000000 ) ) ;
#136 = EDGE_CURVE ( 'NONE', #211, #238, #175, .T. ) ;
#137 = AXIS2_PLACEMENT_3D ( 'NONE', #89, #194, #287 ) ;
#138 = CIRCLE ( 'NONE', #137, 79.29999999999996874 ) ;
#139 = DIRECTION ( 'NONE',  ( -0.0000000000000000000, -1.000000000000000000, -0.0000000000000000000 ) ) ;
#140 = DIRECTION ( 'NONE',  ( 0.0000000000000000000, 0.0000000000000000000, -1.000000000000000000 ) ) ;
#141 = CYLINDRICAL_SURFACE ( 'NONE', #86, 90.00000000000000000 ) ;
#142 = FACE_OUTER_BOUND ( 'NONE', #107, .T. ) ;
#143 = LINE ( 'NONE', #248, #75 ) ;
#144 = AXIS2_PLACEMENT_3D ( 'NONE', #111, #220, #2 ) ;
#145 =( LENGTH_UNIT ( ) NAMED_UNIT ( * ) SI_UNIT ( .MILLI., .METRE. ) );
#146 = LOCAL_TIME ( 14, 43, 30.00000000000000000, #151 ) ;
#147 = APPROVAL_STATUS ( 'not_yet_approved' ) ;
#148 = APPROVAL_STATUS ( 'not_yet_approved' ) ;
#149 = CIRCLE ( 'NONE', #144, 90.00000000000000000 ) ;
#150 = AXIS2_PLACEMENT_3D ( 'NONE', #135, #242, #23 ) ;
#151 = COORDINATED_UNIVERSAL_TIME_OFFSET ( 3, 0, .AHEAD. ) ;
#152 = FACE_OUTER_BOUND ( 'NONE', #301, .T. ) ;
#153 = ORIENTED_EDGE ( 'NONE', *, *, #251, .F. ) ;
#154 = CIRCLE ( 'NONE', #150, 79.29999999999998295 ) ;
#155 = ORIENTED_EDGE ( 'NONE', *, *, #267, .F. ) ;
#156 = DESIGN_CONTEXT ( 'detailed design', #302, 'design' ) ;
#157 = CC_DESIGN_PERSON_AND_ORGANIZATION_ASSIGNMENT ( #98, #205, ( #264 ) ) ;
#158 = ORIENTED_EDGE ( 'NONE', *, *, #213, .F. ) ;
#159 = EDGE_CURVE ( 'NONE', #211, #18, #167, .T. ) ;
#160 = ORIENTED_EDGE ( 'NONE', *, *, #288, .F. ) ;
#161 = AXIS2_PLACEMENT_3D ( 'NONE', #164, #265, #42 ) ;
#162 = CC_DESIGN_APPROVAL ( #230, ( #264 ) ) ;
#163 = CARTESIAN_POINT ( 'NONE',  ( 0.0000000000000000000, -235.8286927311983732, 0.0000000000000000000 ) ) ;
#164 = CARTESIAN_POINT ( 'NONE',  ( 3.474794390132481404E-16, -235.8286927311983732, 2.837384944419703903 ) ) ;
#165 = EDGE_CURVE ( 'NONE', #260, #280, #154, .T. ) ;
#166 = DIRECTION ( 'NONE',  ( -1.000000000000000000, 0.0000000000000000000, 0.0000000000000000000 ) ) ;
#167 = CIRCLE ( 'NONE', #161, 360.0000000000000000 ) ;
#168 = AXIS2_PLACEMENT_3D ( 'NONE', #193, #286, #61 ) ;
#169 = CARTESIAN_POINT ( 'NONE',  ( 0.0000000000000000000, 0.0000000000000000000, -79.29999999999998295 ) ) ;
#170 = CARTESIAN_POINT ( 'NONE',  ( 1.102182119232617911E-14, 0.0000000000000000000, 90.00000000000000000 ) ) ;
#171 = DIRECTION ( 'NONE',  ( 0.0000000000000000000, 0.0000000000000000000, -1.000000000000000000 ) ) ;
#172 = CARTESIAN_POINT ( 'NONE',  ( 0.0000000000000000000, -235.8286927311983732, 0.0000000000000000000 ) ) ;
#173 = DIRECTION ( 'NONE',  ( -1.224646799147353207E-16, 0.0000000000000000000, -1.000000000000000000 ) ) ;
#174 = EDGE_CURVE ( 'NONE', #18, #238, #149, .T. ) ;
#175 = CIRCLE ( 'NONE', #168, 360.0000000000000000 ) ;
#176 = APPLICATION_PROTOCOL_DEFINITION ( 'international standard', 'config_control_design', 1994, #289 ) ;
#177 = CC_DESIGN_DATE_AND_TIME_ASSIGNMENT ( #180, #274, ( #264 ) ) ;
#178 = PERSON_AND_ORGANIZATION_ROLE ( 'design_owner' ) ;
#179 = EDGE_CURVE ( 'NONE', #33, #212, #138, .T. ) ;
#180 = DATE_AND_TIME ( #73, #28 ) ;
#181 = SECURITY_CLASSIFICATION_LEVEL ( 'unclassified' ) ;
#182 = AXIS2_PLACEMENT_3D ( 'NONE', #219, #307, #87 ) ;
#183 = APPROVAL_DATE_TIME ( #77, #201 ) ;
#184 = ORIENTED_EDGE ( 'NONE', *, *, #188, .T. ) ;
#185 = EDGE_LOOP ( 'NONE', ( #189, #184, #237 ) ) ;
#186 = CIRCLE ( 'NONE', #182, 90.00000000000000000 ) ;
#187 = ORIENTED_EDGE ( 'NONE', *, *, #267, .T. ) ;
#188 = EDGE_CURVE ( 'NONE', #281, #33, #130, .T. ) ;
#189 = ORIENTED_EDGE ( 'NONE', *, *, #295, .F. ) ;
#190 = FACE_OUTER_BOUND ( 'NONE', #34, .T. ) ;
#191 = LOCAL_TIME ( 14, 43, 30.00000000000000000, #207 ) ;
#192 = EDGE_CURVE ( 'NONE', #212, #33, #120, .T. ) ;
#193 = CARTESIAN_POINT ( 'NONE',  ( 0.0000000000000000000, -235.8286927311983732, -2.837384944419703903 ) ) ;
#194 = DIRECTION ( 'NONE',  ( -0.0000000000000000000, -1.000000000000000000, -0.0000000000000000000 ) ) ;
#195 = DIRECTION ( 'NONE',  ( 0.0000000000000000000, 0.0000000000000000000, -1.000000000000000000 ) ) ;
#196 = AXIS2_PLACEMENT_3D ( 'NONE', #240, #21, #109 ) ;
#197 = CIRCLE ( 'NONE', #196, 90.00000000000000000 ) ;
#198 = CYLINDRICAL_SURFACE ( 'NONE', #39, 79.29999999999998295 ) ;
#199 = FACE_OUTER_BOUND ( 'NONE', #185, .T. ) ;
#200 = DIRECTION ( 'NONE',  ( -0.0000000000000000000, -1.000000000000000000, -0.0000000000000000000 ) ) ;
#201 = APPROVAL ( #13, 'BELÝRTÝLMEMÝÞ' ) ;
#202 = AXIS2_PLACEMENT_3D ( 'NONE', #163, #263, #41 ) ;
#203 = TOROIDAL_SURFACE ( 'NONE', #202, 2.837384944419703903, 360.0000000000000000 ) ;
#204 = ADVANCED_FACE ( 'NONE', ( #24 ), #106, .F. ) ;
#205 = PERSON_AND_ORGANIZATION_ROLE ( 'creator' ) ;
#206 = PERSON_AND_ORGANIZATION_ROLE ( 'creator' ) ;
#207 = COORDINATED_UNIVERSAL_TIME_OFFSET ( 3, 0, .AHEAD. ) ;
#208 = AXIS2_PLACEMENT_3D ( 'NONE', #218, #306, #85 ) ;
#209 = PRODUCT_DEFINITION_FORMATION_WITH_SPECIFIED_SOURCE ( 'HERHANGÝ', '', #114, .NOT_KNOWN. ) ;
#210 = DIRECTION ( 'NONE',  ( -0.0000000000000000000, -1.000000000000000000, -0.0000000000000000000 ) ) ;
#211 = VERTEX_POINT ( 'NONE', #221 ) ;
#212 = VERTEX_POINT ( 'NONE', #291 ) ;
#213 = EDGE_CURVE ( 'NONE', #18, #20, #66, .T. ) ;
#214 = TOROIDAL_SURFACE ( 'NONE', #208, 2.837384944419703903, 360.0000000000000000 ) ;
#215 = ORIENTED_EDGE ( 'NONE', *, *, #295, .T. ) ;
#216 = CLOSED_SHELL ( 'NONE', ( #204, #78, #285, #279, #275, #258, #224, #29, #236 ) ) ;
#217 = ORIENTED_EDGE ( 'NONE', *, *, #192, .T. ) ;
#218 = CARTESIAN_POINT ( 'NONE',  ( 0.0000000000000000000, -235.8286927311983732, 0.0000000000000000000 ) ) ;
#219 = CARTESIAN_POINT ( 'NONE',  ( 0.0000000000000000000, 113.4601254933085812, 0.0000000000000000000 ) ) ;
#220 = DIRECTION ( 'NONE',  ( -0.0000000000000000000, -1.000000000000000000, -0.0000000000000000000 ) ) ;
#221 = CARTESIAN_POINT ( 'NONE',  ( -2.298508605669269400E-14, 124.1601254933086835, 0.0000000000000000000 ) ) ;
#222 = DIRECTION ( 'NONE',  ( -0.0000000000000000000, -1.000000000000000000, -0.0000000000000000000 ) ) ;
#223 = CARTESIAN_POINT ( 'NONE',  ( 0.0000000000000000000, 0.0000000000000000000, 0.0000000000000000000 ) ) ;
#224 = ADVANCED_FACE ( 'NONE', ( #46 ), #141, .T. ) ;
#225 = DIRECTION ( 'NONE',  ( 0.0000000000000000000, 0.0000000000000000000, -1.000000000000000000 ) ) ;
#226 = EDGE_CURVE ( 'NONE', #104, #20, #92, .T. ) ;
#227 = DIRECTION ( 'NONE',  ( 0.0000000000000000000, 0.0000000000000000000, 1.000000000000000000 ) ) ;
#228 = DATE_AND_TIME ( #119, #297 ) ;
#229 = DATE_AND_TIME ( #121, #250 ) ;
#230 = APPROVAL ( #147, 'BELÝRTÝLMEMÝÞ' ) ;
#231 = PERSON_AND_ORGANIZATION ( #12, #262 ) ;
#232 = CARTESIAN_POINT ( 'NONE',  ( 9.711449117238508608E-15, 0.0000000000000000000, 79.29999999999998295 ) ) ;
#233 = CC_DESIGN_SECURITY_CLASSIFICATION ( #284, ( #209 ) ) ;
#234 = ORIENTED_EDGE ( 'NONE', *, *, #174, .T. ) ;
#235 = EDGE_LOOP ( 'NONE', ( #125, #17, #187, #160 ) ) ;
#236 = ADVANCED_FACE ( 'NONE', ( #199 ), #81, .F. ) ;
#237 = ORIENTED_EDGE ( 'NONE', *, *, #179, .T. ) ;
#238 = VERTEX_POINT ( 'NONE', #68 ) ;
#239 = FACE_OUTER_BOUND ( 'NONE', #283, .T. ) ;
#240 = CARTESIAN_POINT ( 'NONE',  ( 0.0000000000000000000, 0.0000000000000000000, 0.0000000000000000000 ) ) ;
#241 = CC_DESIGN_DATE_AND_TIME_ASSIGNMENT ( #32, #123, ( #284 ) ) ;
#242 = DIRECTION ( 'NONE',  ( -0.0000000000000000000, -1.000000000000000000, -0.0000000000000000000 ) ) ;
#243 = DIRECTION ( 'NONE',  ( 0.0000000000000000000, 0.0000000000000000000, -1.000000000000000000 ) ) ;
#244 = EDGE_CURVE ( 'NONE', #238, #104, #143, .T. ) ;
#245 = FACE_OUTER_BOUND ( 'NONE', #126, .T. ) ;
#246 = CARTESIAN_POINT ( 'NONE',  ( 0.0000000000000000000, 0.0000000000000000000, 0.0000000000000000000 ) ) ;
#247 = CYLINDRICAL_SURFACE ( 'NONE', #43, 90.00000000000000000 ) ;
#248 = CARTESIAN_POINT ( 'NONE',  ( 0.0000000000000000000, 0.0000000000000000000, -90.00000000000000000 ) ) ;
#249 = PRODUCT_DEFINITION_SHAPE ( 'NONE', 'NONE',  #264 ) ;
#250 = LOCAL_TIME ( 14, 43, 30.00000000000000000, #31 ) ;
#251 = EDGE_CURVE ( 'NONE', #212, #280, #15, .T. ) ;
#252 = CC_DESIGN_PERSON_AND_ORGANIZATION_ASSIGNMENT ( #296, #74, ( #209 ) ) ;
#253 = APPROVAL_ROLE ( '' ) ;
#254 = APPROVAL_ROLE ( '' ) ;
#255 = CALENDAR_DATE ( 2019, 16, 12 ) ;
#256 = FACE_BOUND ( 'NONE', #80, .T. ) ;
#257 = ORIENTED_EDGE ( 'NONE', *, *, #136, .T. ) ;
#258 = ADVANCED_FACE ( 'NONE', ( #152, #256 ), #298, .T. ) ;
#259 = EDGE_LOOP ( 'NONE', ( #158, #234, #103, #282 ) ) ;
#260 = VERTEX_POINT ( 'NONE', #169 ) ;
#261 = ORIENTED_EDGE ( 'NONE', *, *, #159, .F. ) ;
#262 = ORGANIZATION ( 'BELÝRTÝLMEMÝÞ', 'BELÝRTÝLMEMÝÞ', '' ) ;
#263 = DIRECTION ( 'NONE',  ( -0.0000000000000000000, -1.000000000000000000, -0.0000000000000000000 ) ) ;
#264 = PRODUCT_DEFINITION ( 'BÝLÝNMEYEN', '', #209, #156 ) ;
#265 = DIRECTION ( 'NONE',  ( 1.000000000000000000, 0.0000000000000000000, -1.224646799147353207E-16 ) ) ;
#266 = DIRECTION ( 'NONE',  ( 0.0000000000000000000, 0.0000000000000000000, 1.000000000000000000 ) ) ;
#267 = EDGE_CURVE ( 'NONE', #280, #260, #63, .T. ) ;
#268 = CARTESIAN_POINT ( 'NONE',  ( 0.0000000000000000000, 0.0000000000000000000, 0.0000000000000000000 ) ) ;
#269 = DIRECTION ( 'NONE',  ( -0.0000000000000000000, -1.000000000000000000, -0.0000000000000000000 ) ) ;
#270 = ADVANCED_BREP_SHAPE_REPRESENTATION ( 'End Cap SDR17_001 115 0140 0180', ( #72, #9 ), #6 ) ;
#271 = CARTESIAN_POINT ( 'NONE',  ( 9.711449117238508608E-15, 0.0000000000000000000, 79.29999999999998295 ) ) ;
#272 = DIRECTION ( 'NONE',  ( -0.0000000000000000000, -1.000000000000000000, -0.0000000000000000000 ) ) ;
#273 = APPLICATION_PROTOCOL_DEFINITION ( 'international standard', 'config_control_design', 1994, #302 ) ;
#274 = DATE_TIME_ROLE ( 'creation_date' ) ;
#275 = ADVANCED_FACE ( 'NONE', ( #245 ), #25, .F. ) ;
#276 = CC_DESIGN_PERSON_AND_ORGANIZATION_ASSIGNMENT ( #99, #206, ( #209 ) ) ;
#277 = PERSON_AND_ORGANIZATION ( #12, #262 ) ;
#278 = SHAPE_DEFINITION_REPRESENTATION ( #249, #270 ) ;
#279 = ADVANCED_FACE ( 'NONE', ( #91 ), #198, .F. ) ;
#280 = VERTEX_POINT ( 'NONE', #271 ) ;
#281 = VERTEX_POINT ( 'NONE', #47 ) ;
#282 = ORIENTED_EDGE ( 'NONE', *, *, #122, .F. ) ;
#283 = EDGE_LOOP ( 'NONE', ( #261, #257, #83 ) ) ;
#284 = SECURITY_CLASSIFICATION ( '', '', #181 ) ;
#285 = ADVANCED_FACE ( 'NONE', ( #142 ), #247, .T. ) ;
#286 = DIRECTION ( 'NONE',  ( -1.000000000000000000, 0.0000000000000000000, 0.0000000000000000000 ) ) ;
#287 = DIRECTION ( 'NONE',  ( 0.0000000000000000000, 0.0000000000000000000, -1.000000000000000000 ) ) ;
#288 = EDGE_CURVE ( 'NONE', #33, #260, #7, .T. ) ;
#289 = APPLICATION_CONTEXT ( 'configuration controlled 3d designs of mechanical parts and assemblies' ) ;
#290 = DIRECTION ( 'NONE',  ( 0.0000000000000000000, -1.000000000000000000, -0.0000000000000000000 ) ) ;
#291 = CARTESIAN_POINT ( 'NONE',  ( 9.711449117238507030E-15, 104.9999999999999858, 79.29999999999996874 ) ) ;
#292 = CARTESIAN_POINT ( 'NONE',  ( 0.0000000000000000000, 0.0000000000000000000, 0.0000000000000000000 ) ) ;
#293 = CARTESIAN_POINT ( 'NONE',  ( 3.474794390132481404E-16, -235.8286927311983732, 2.837384944419703903 ) ) ;
#294 = COORDINATED_UNIVERSAL_TIME_OFFSET ( 3, 0, .AHEAD. ) ;
#295 = EDGE_CURVE ( 'NONE', #281, #212, #22, .T. ) ;
#296 = PERSON_AND_ORGANIZATION ( #12, #262 ) ;
#297 = LOCAL_TIME ( 14, 43, 30.00000000000000000, #30 ) ;
#298 = PLANE ( 'NONE',  #65 ) ;
#299 = CALENDAR_DATE ( 2019, 16, 12 ) ;
#300 = ORIENTED_EDGE ( 'NONE', *, *, #159, .T. ) ;
#301 = EDGE_LOOP ( 'NONE', ( #127, #128 ) ) ;
#302 = APPLICATION_CONTEXT ( 'configuration controlled 3d designs of mechanical parts and assemblies' ) ;
#303 = ORIENTED_EDGE ( 'NONE', *, *, #179, .F. ) ;
#304 = APPROVAL ( #148, 'BELÝRTÝLMEMÝÞ' ) ;
#305 = ORIENTED_EDGE ( 'NONE', *, *, #136, .F. ) ;
#306 = DIRECTION ( 'NONE',  ( -0.0000000000000000000, -1.000000000000000000, -0.0000000000000000000 ) ) ;
#307 = DIRECTION ( 'NONE',  ( -0.0000000000000000000, -1.000000000000000000, -0.0000000000000000000 ) ) ;
ENDSEC;
END-ISO-10303-21;
